Üye Girişi
x

Giriş Başarılı.

Yanlış Bilgiler.

E-mail adresinizi doğrulamalısınız.

Facebook'la giriş | Kayıt ol | Şifremi unuttum
İletişim
x

Mesajınız gönderildi.

Mesajınız gönderilemedi.

Güvenlik sorusu yanlış.

Kullandığınız Sosyal Medyayı Seçin
Yeni Klasör 8 yıldır sizin için en güvenli hizmeti veriyor...

Teknoloji dünyasındaki son gelişmeler ve sürpriz hediyelerimiz için bizi takip edin.

The Godfather Tab

godfather tab indir

Forumlar / Eğlence / Müzik

 
> 1 <

Mert_Yilmaz
Seek & Destroy

grup tuttuğum takım
Binbaşı Grup
Hat durumu Cinsiyet Özel mesaj 2411 ileti
Yer: Isparta
İş: Öğrenci
Kayıt: 21-06-2006 14:55

işletim sistemim [+][+3][+5] [-]
kırık link bildirimi Kırık Link Bildir! #342382 29-08-2009 05:47 GMT-1 saat    
e:---------------------------------------------------------|
B:-------1--0-----1-----0--------------------1--0-----1----|
G:----2--------2-----2-----2-----0--------2--------2-----2-|
D:-2--------------------------3-----2--2-------------------|
A:---------------------------------------------------------|
E:---------------------------------------------------------|


E:---------------------------------------------------------|
B:-0------------------------0------------------------------|
G:----2------------------2-----------1--2--------0---------|
D:-------3--2--0---0--3--------0--3-----------------3--2---|
A:-----------------------------------------0--3------------|
E:---------------------------------------------------------|

E:----------------------|
B:----------------------|
G:-0--------------------|
D:----3--3--2-----------|
A:-------------2--3--0--|
E:----------------------|

Bunu ilk beğenen siz olun

Hata Oluştu


Yeniklasor <3

Quick_man34
-- AdministratoR --

grup tuttuğum takım
Yüzbaşı Grup
Hat durumu Cinsiyet Özel mesaj 1027 ileti
Yer: Bangalore
İş: Although I would say
Kayıt: 25-08-2009 17:13

işletim sistemim [+][+3][+5] [-]
#342417 29-08-2009 17:39 GMT-1 saat    
Ellerine Sağlık Sağoalsın.

Bunu ilk beğenen siz olun

Hata Oluştu



Mert_Yilmaz
Seek & Destroy

grup tuttuğum takım
Binbaşı Grup
Hat durumu Cinsiyet Özel mesaj 2411 ileti
Yer: Isparta
İş: Öğrenci
Kayıt: 21-06-2006 14:55

işletim sistemim [+][+3][+5] [-]
#342474 29-08-2009 18:43 GMT-1 saat    
Rica Ederim Kanka

Bunu ilk beğenen siz olun

Hata Oluştu


Yeniklasor <3

tma
Rock Out..!

grup tuttuğum takım
Binbaşı Grup
Hat durumu Cinsiyet Özel mesaj 3329 ileti
Yer: Antalya
İş: Bass Gitarist
Kayıt: 04-05-2007 18:19

işletim sistemim [+][+3][+5] [-]
#342727 31-08-2009 05:04 GMT-1 saat    
ben bunu biyerden hatırlıyorum
paylaşım için sağol

Bunu ilk beğenen siz olun

Hata Oluştu


Eski nick: 07mert

Everything Louder Than Everything Else - Motörhead

Mert_Yilmaz
Seek & Destroy

grup tuttuğum takım
Binbaşı Grup
Hat durumu Cinsiyet Özel mesaj 2411 ileti
Yer: Isparta
İş: Öğrenci
Kayıt: 21-06-2006 14:55

işletim sistemim [+][+3][+5] [-]
#342742 31-08-2009 06:26 GMT-1 saat    
Alıntı:
07mert :
ben bunu biyerden hatırlıyorum
paylaşım için sağol

Rica Ederim Evet bende hatırlıyorum

Bunu ilk beğenen siz olun

Hata Oluştu


Yeniklasor <3
> 1 <